ISO-10303-21;
HEADER;
FILE_DESCRIPTION (( 'STEP AP203' ),
    '1' );
FILE_NAME ('Q-OZHWP-R2-25.4-1550-M.STEP',
    '2020-12-22T09:18:10',
    ( '' ),
    ( '' ),
    'SwSTEP 2.0',
    'SolidWorks 2020',
    '' );
FILE_SCHEMA (( 'CONFIG_CONTROL_DESIGN' ));
ENDSEC;

DATA;
#1 = MANIFOLD_SOLID_BREP ( 'Ðý×', #165 ) ;
#2 = AXIS2_PLACEMENT_3D ( 'NONE', #6, #3, #57 ) ;
#3 = DIRECTION ( 'NONE',  ( -1.000000000000000000, -0.000000000000000000, -0.000000000000000000 ) ) ;
#4 = CYLINDRICAL_SURFACE ( 'NONE', #67, 12.69999999999999929 ) ;
#5 = CARTESIAN_POINT ( 'NONE',  ( -3.000000000000000000, 1.555301434917138433E-15, -12.69999999999999929 ) ) ;
#6 = CARTESIAN_POINT ( 'NONE',  ( -3.000000000000000000, 0.000000000000000000, 0.000000000000000000 ) ) ;
#7 = APPROVAL ( #25, 'UNSPECIFIED' ) ;
#8 = PERSON_AND_ORGANIZATION ( #141, #54 ) ;
#9 = COORDINATED_UNIVERSAL_TIME_OFFSET ( 8, 0, .AHEAD. ) ;
#10 = VECTOR ( 'NONE', #74, 1000.000000000000000 ) ;
#11 = EDGE_CURVE ( 'NONE', #14, #153, #84, .T. ) ;
#12 = DATE_AND_TIME ( #15, #59 ) ;
#13 = ORIENTED_EDGE ( 'NONE', *, *, #105, .F. ) ;
#14 = VERTEX_POINT ( 'NONE', #158 ) ;
#15 = CALENDAR_DATE ( 2020, 22, 12 ) ;
#16 = PRODUCT ( 'Q-OZHWP-R2-25.4-1550-M', 'Q-OZHWP-R2-25.4-1550-M', '', ( #111 ) ) ;
#17 = CARTESIAN_POINT ( 'NONE',  ( -3.000000000000000000, 0.000000000000000000, 0.000000000000000000 ) ) ;
#18 = EDGE_CURVE ( 'NONE', #28, #14, #56, .T. ) ;
#19 = FACE_OUTER_BOUND ( 'NONE', #52, .T. ) ;
#20 = FACE_OUTER_BOUND ( 'NONE', #50, .T. ) ;
#21 = DATE_AND_TIME ( #35, #128 ) ;
#22 = APPROVAL_PERSON_ORGANIZATION ( #117, #7, #87 ) ;
#23 =( NAMED_UNIT ( * ) SI_UNIT ( $, .STERADIAN. ) SOLID_ANGLE_UNIT ( ) );
#24 = CALENDAR_DATE ( 2020, 22, 12 ) ;
#25 = APPROVAL_STATUS ( 'not_yet_approved' ) ;
#26 = CC_DESIGN_APPROVAL ( #166, ( #82 ) ) ;
#27 = CALENDAR_DATE ( 2020, 22, 12 ) ;
#28 = VERTEX_POINT ( 'NONE', #45 ) ;
#29 = CARTESIAN_POINT ( 'NONE',  ( 3.000000000000000888, 12.69999999999999929, 0.000000000000000000 ) ) ;
#30 = CARTESIAN_POINT ( 'NONE',  ( 3.000000000000001776, 0.000000000000000000, 0.000000000000000000 ) ) ;
#31 = AXIS2_PLACEMENT_3D ( 'NONE', #55, #121, #73 ) ;
#32 = PLANE ( 'NONE',  #49 ) ;
#33 = VECTOR ( 'NONE', #120, 1000.000000000000000 ) ;
#34 = PERSON_AND_ORGANIZATION ( #141, #54 ) ;
#35 = CALENDAR_DATE ( 2020, 22, 12 ) ;
#36 = CC_DESIGN_DATE_AND_TIME_ASSIGNMENT ( #139, #37, ( #170 ) ) ;
#37 = DATE_TIME_ROLE ( 'classification_date' ) ;
#38 = ORIENTED_EDGE ( 'NONE', *, *, #11, .F. ) ;
#39 = ORIENTED_EDGE ( 'NONE', *, *, #69, .F. ) ;
#40 = EDGE_CURVE ( 'NONE', #153, #14, #118, .T. ) ;
#41 = CARTESIAN_POINT ( 'NONE',  ( -3.000000000000000000, 0.000000000000000000, 12.69999999999999929 ) ) ;
#42 = DIRECTION ( 'NONE',  ( 0.000000000000000000, 0.000000000000000000, 1.000000000000000000 ) ) ;
#43 = CARTESIAN_POINT ( 'NONE',  ( 3.000000000000001776, 1.555301434917138433E-15, -12.69999999999999929 ) ) ;
#44 = DIRECTION ( 'NONE',  ( -1.000000000000000000, -0.000000000000000000, -0.000000000000000000 ) ) ;
#45 = CARTESIAN_POINT ( 'NONE',  ( 3.000000000000001776, 0.000000000000000000, 12.69999999999999929 ) ) ;
#46 = AXIS2_PLACEMENT_3D ( 'NONE', #147, #119, #76 ) ;
#47 = DIRECTION ( 'NONE',  ( 0.000000000000000000, 0.000000000000000000, 1.000000000000000000 ) ) ;
#48 = DATE_TIME_ROLE ( 'creation_date' ) ;
#49 = AXIS2_PLACEMENT_3D ( 'NONE', #29, #130, #156 ) ;
#50 = EDGE_LOOP ( 'NONE', ( #13, #116 ) ) ;
#51 = ORIENTED_EDGE ( 'NONE', *, *, #18, .F. ) ;
#52 = EDGE_LOOP ( 'NONE', ( #39, #66, #175, #114 ) ) ;
#53 = AXIS2_PLACEMENT_3D ( 'NONE', #30, #44, #146 ) ;
#54 = ORGANIZATION ( 'UNSPECIFIED', 'UNSPECIFIED', '' ) ;
#55 = CARTESIAN_POINT ( 'NONE',  ( -3.000000000000000888, 12.69999999999999929, 0.000000000000000000 ) ) ;
#56 = LINE ( 'NONE', #41, #10 ) ;
#57 = DIRECTION ( 'NONE',  ( 0.000000000000000000, 0.000000000000000000, 1.000000000000000000 ) ) ;
#58 = PERSON_AND_ORGANIZATION ( #141, #54 ) ;
#59 = LOCAL_TIME ( 17, 18, 10.00000000000000000, #113 ) ;
#60 = APPLICATION_PROTOCOL_DEFINITION ( 'international standard', 'config_control_design', 1994, #163 ) ;
#61 = ADVANCED_FACE ( 'NONE', ( #20 ), #32, .F. ) ;
#62 = APPLICATION_PROTOCOL_DEFINITION ( 'international standard', 'config_control_design', 1994, #129 ) ;
#63 = CC_DESIGN_DATE_AND_TIME_ASSIGNMENT ( #95, #48, ( #152 ) ) ;
#64 = COORDINATED_UNIVERSAL_TIME_OFFSET ( 8, 0, .AHEAD. ) ;
#65 = ORIENTED_EDGE ( 'NONE', *, *, #40, .T. ) ;
#66 = ORIENTED_EDGE ( 'NONE', *, *, #97, .T. ) ;
#67 = AXIS2_PLACEMENT_3D ( 'NONE', #17, #167, #72 ) ;
#68 = VERTEX_POINT ( 'NONE', #43 ) ;
#69 = EDGE_CURVE ( 'NONE', #68, #153, #75, .T. ) ;
#70 = EDGE_LOOP ( 'NONE', ( #142, #154, #38, #51 ) ) ;
#71 = CC_DESIGN_PERSON_AND_ORGANIZATION_ASSIGNMENT ( #149, #133, ( #170 ) ) ;
#72 = DIRECTION ( 'NONE',  ( 0.000000000000000000, 0.000000000000000000, 1.000000000000000000 ) ) ;
#73 = DIRECTION ( 'NONE',  ( 0.000000000000000000, 0.000000000000000000, -1.000000000000000000 ) ) ;
#74 = DIRECTION ( 'NONE',  ( -1.000000000000000000, -0.000000000000000000, -0.000000000000000000 ) ) ;
#75 = LINE ( 'NONE', #5, #33 ) ;
#76 = DIRECTION ( 'NONE',  ( 0.000000000000000000, 0.000000000000000000, 1.000000000000000000 ) ) ;
#77 = ADVANCED_FACE ( 'NONE', ( #106 ), #93, .F. ) ;
#78 = PERSON_AND_ORGANIZATION ( #141, #54 ) ;
#79 = ADVANCED_BREP_SHAPE_REPRESENTATION ( 'Q-OZHWP-R2-25.4-1550-M', ( #1, #157 ), #136 ) ;
#80 = APPROVAL_PERSON_ORGANIZATION ( #58, #89, #148 ) ;
#81 = COORDINATED_UNIVERSAL_TIME_OFFSET ( 8, 0, .AHEAD. ) ;
#82 = PRODUCT_DEFINITION_FORMATION_WITH_SPECIFIED_SOURCE ( 'ANY', '', #16, .NOT_KNOWN. ) ;
#83 = DATE_AND_TIME ( #24, #108 ) ;
#84 = CIRCLE ( 'NONE', #90, 12.69999999999999929 ) ;
#85 = EDGE_LOOP ( 'NONE', ( #125, #65 ) ) ;
#86 = APPROVAL_PERSON_ORGANIZATION ( #151, #166, #112 ) ;
#87 = APPROVAL_ROLE ( '' ) ;
#88 = FACE_OUTER_BOUND ( 'NONE', #70, .T. ) ;
#89 = APPROVAL ( #110, 'UNSPECIFIED' ) ;
#90 = AXIS2_PLACEMENT_3D ( 'NONE', #143, #92, #145 ) ;
#91 = CC_DESIGN_APPROVAL ( #7, ( #170 ) ) ;
#92 = DIRECTION ( 'NONE',  ( -1.000000000000000000, -0.000000000000000000, -0.000000000000000000 ) ) ;
#93 = PLANE ( 'NONE',  #31 ) ;
#94 = CIRCLE ( 'NONE', #53, 12.69999999999999929 ) ;
#95 = DATE_AND_TIME ( #96, #160 ) ;
#96 = CALENDAR_DATE ( 2020, 22, 12 ) ;
#97 = EDGE_CURVE ( 'NONE', #68, #28, #94, .T. ) ;
#98 = DESIGN_CONTEXT ( 'detailed design', #129, 'design' ) ;
#99 = CARTESIAN_POINT ( 'NONE',  ( -3.000000000000001776, 0.000000000000000000, 0.000000000000000000 ) ) ;
#100 = CC_DESIGN_PERSON_AND_ORGANIZATION_ASSIGNMENT ( #34, #150, ( #16 ) ) ;
#101 =( NAMED_UNIT ( * ) PLANE_ANGLE_UNIT ( ) SI_UNIT ( $, .RADIAN. ) );
#102 = CC_DESIGN_SECURITY_CLASSIFICATION ( #170, ( #82 ) ) ;
#103 =( LENGTH_UNIT ( ) NAMED_UNIT ( * ) SI_UNIT ( .MILLI., .METRE. ) );
#104 = DIRECTION ( 'NONE',  ( -1.000000000000000000, -0.000000000000000000, -0.000000000000000000 ) ) ;
#105 = EDGE_CURVE ( 'NONE', #28, #68, #159, .T. ) ;
#106 = FACE_OUTER_BOUND ( 'NONE', #85, .T. ) ;
#107 = CC_DESIGN_PERSON_AND_ORGANIZATION_ASSIGNMENT ( #8, #122, ( #82 ) ) ;
#108 = LOCAL_TIME ( 17, 18, 10.00000000000000000, #64 ) ;
#109 = APPROVAL_STATUS ( 'not_yet_approved' ) ;
#110 = APPROVAL_STATUS ( 'not_yet_approved' ) ;
#111 = MECHANICAL_CONTEXT ( 'NONE', #163, 'mechanical' ) ;
#112 = APPROVAL_ROLE ( '' ) ;
#113 = COORDINATED_UNIVERSAL_TIME_OFFSET ( 8, 0, .AHEAD. ) ;
#114 = ORIENTED_EDGE ( 'NONE', *, *, #40, .F. ) ;
#115 = AXIS2_PLACEMENT_3D ( 'NONE', #99, #104, #42 ) ;
#116 = ORIENTED_EDGE ( 'NONE', *, *, #97, .F. ) ;
#117 = PERSON_AND_ORGANIZATION ( #141, #54 ) ;
#118 = CIRCLE ( 'NONE', #115, 12.69999999999999929 ) ;
#119 = DIRECTION ( 'NONE',  ( -1.000000000000000000, -0.000000000000000000, -0.000000000000000000 ) ) ;
#120 = DIRECTION ( 'NONE',  ( -1.000000000000000000, -0.000000000000000000, -0.000000000000000000 ) ) ;
#121 = DIRECTION ( 'NONE',  ( 1.000000000000000000, 0.000000000000000000, 0.000000000000000000 ) ) ;
#122 = PERSON_AND_ORGANIZATION_ROLE ( 'design_supplier' ) ;
#123 = DIRECTION ( 'NONE',  ( 1.000000000000000000, 0.000000000000000000, 0.000000000000000000 ) ) ;
#124 = APPROVAL_DATE_TIME ( #21, #89 ) ;
#125 = ORIENTED_EDGE ( 'NONE', *, *, #11, .T. ) ;
#126 = ADVANCED_FACE ( 'NONE', ( #19 ), #131, .T. ) ;
#127 = PRODUCT_DEFINITION_SHAPE ( 'NONE', 'NONE',  #152 ) ;
#128 = LOCAL_TIME ( 17, 18, 10.00000000000000000, #162 ) ;
#129 = APPLICATION_CONTEXT ( 'configuration controlled 3d designs of mechanical parts and assemblies' ) ;
#130 = DIRECTION ( 'NONE',  ( -1.000000000000000000, 0.000000000000000000, -0.000000000000000000 ) ) ;
#131 = CYLINDRICAL_SURFACE ( 'NONE', #2, 12.69999999999999929 ) ;
#132 = PERSON_AND_ORGANIZATION_ROLE ( 'creator' ) ;
#133 = PERSON_AND_ORGANIZATION_ROLE ( 'classification_officer' ) ;
#134 = APPROVAL_DATE_TIME ( #83, #166 ) ;
#135 = CC_DESIGN_PERSON_AND_ORGANIZATION_ASSIGNMENT ( #78, #132, ( #82 ) ) ;
#136 =( GEOMETRIC_REPRESENTATION_CONTEXT ( 3 ) GLOBAL_UNCERTAINTY_ASSIGNED_CONTEXT ( ( #138 ) ) GLOBAL_UNIT_ASSIGNED_CONTEXT ( ( #103, #101, #23 ) ) REPRESENTATION_CONTEXT ( 'NONE', 'WORKASPACE' ) );
#137 = CC_DESIGN_PERSON_AND_ORGANIZATION_ASSIGNMENT ( #173, #169, ( #152 ) ) ;
#138 = UNCERTAINTY_MEASURE_WITH_UNIT (LENGTH_MEASURE( 1.000000000000000082E-05 ), #103, 'distance_accuracy_value', 'NONE');
#139 = DATE_AND_TIME ( #27, #144 ) ;
#140 = CC_DESIGN_APPROVAL ( #89, ( #152 ) ) ;
#141 = PERSON ( 'UNSPECIFIED', 'UNSPECIFIED', 'UNSPECIFIED', ('UNSPECIFIED'), ('UNSPECIFIED'), ('UNSPECIFIED') ) ;
#142 = ORIENTED_EDGE ( 'NONE', *, *, #105, .T. ) ;
#143 = CARTESIAN_POINT ( 'NONE',  ( -3.000000000000001776, 0.000000000000000000, 0.000000000000000000 ) ) ;
#144 = LOCAL_TIME ( 17, 18, 10.00000000000000000, #9 ) ;
#145 = DIRECTION ( 'NONE',  ( 0.000000000000000000, 0.000000000000000000, 1.000000000000000000 ) ) ;
#146 = DIRECTION ( 'NONE',  ( 0.000000000000000000, 0.000000000000000000, 1.000000000000000000 ) ) ;
#147 = CARTESIAN_POINT ( 'NONE',  ( 3.000000000000001776, 0.000000000000000000, 0.000000000000000000 ) ) ;
#148 = APPROVAL_ROLE ( '' ) ;
#149 = PERSON_AND_ORGANIZATION ( #141, #54 ) ;
#150 = PERSON_AND_ORGANIZATION_ROLE ( 'design_owner' ) ;
#151 = PERSON_AND_ORGANIZATION ( #141, #54 ) ;
#152 = PRODUCT_DEFINITION ( 'UNKNOWN', '', #82, #98 ) ;
#153 = VERTEX_POINT ( 'NONE', #168 ) ;
#154 = ORIENTED_EDGE ( 'NONE', *, *, #69, .T. ) ;
#155 = PRODUCT_RELATED_PRODUCT_CATEGORY ( 'detail', '', ( #16 ) ) ;
#156 = DIRECTION ( 'NONE',  ( -0.000000000000000000, 0.000000000000000000, 1.000000000000000000 ) ) ;
#157 = AXIS2_PLACEMENT_3D ( 'NONE', #172, #47, #123 ) ;
#158 = CARTESIAN_POINT ( 'NONE',  ( -3.000000000000001776, 0.000000000000000000, 12.69999999999999929 ) ) ;
#159 = CIRCLE ( 'NONE', #46, 12.69999999999999929 ) ;
#160 = LOCAL_TIME ( 17, 18, 10.00000000000000000, #81 ) ;
#161 = SECURITY_CLASSIFICATION_LEVEL ( 'unclassified' ) ;
#162 = COORDINATED_UNIVERSAL_TIME_OFFSET ( 8, 0, .AHEAD. ) ;
#163 = APPLICATION_CONTEXT ( 'configuration controlled 3d designs of mechanical parts and assemblies' ) ;
#164 = SHAPE_DEFINITION_REPRESENTATION ( #127, #79 ) ;
#165 = CLOSED_SHELL ( 'NONE', ( #171, #126, #61, #77 ) ) ;
#166 = APPROVAL ( #109, 'UNSPECIFIED' ) ;
#167 = DIRECTION ( 'NONE',  ( -1.000000000000000000, -0.000000000000000000, -0.000000000000000000 ) ) ;
#168 = CARTESIAN_POINT ( 'NONE',  ( -3.000000000000001776, 1.555301434917138433E-15, -12.69999999999999929 ) ) ;
#169 = PERSON_AND_ORGANIZATION_ROLE ( 'creator' ) ;
#170 = SECURITY_CLASSIFICATION ( '', '', #161 ) ;
#171 = ADVANCED_FACE ( 'NONE', ( #88 ), #4, .T. ) ;
#172 = CARTESIAN_POINT ( 'NONE',  ( 0.000000000000000000, 0.000000000000000000, 0.000000000000000000 ) ) ;
#173 = PERSON_AND_ORGANIZATION ( #141, #54 ) ;
#174 = APPROVAL_DATE_TIME ( #12, #7 ) ;
#175 = ORIENTED_EDGE ( 'NONE', *, *, #18, .T. ) ;
ENDSEC;
END-ISO-10303-21;
